What's new
  • Welcome to PHCorner forums. Take a moment to sign up and gain unlimited access and extra privileges that guests are not entitled to, such as: All that and more! Registration is quick, simple and absolutely free. Join our community today!

Foreign Music Two is better than one Chords

Romesky

Honorary Poster
Joined
Nov 16, 2015
Messages
727
Reaction
116
Title: Two Is Better Than One
Artist: Boys Like Girls feat. Taylor Swift


Intro:
e|------------------------------------------------------------------|
B|-------------1----------1---------1----------1--------------------|
G|---------0----------0----------0------0---------------------------|
D|------2---------2----------2--------------2-----------------------|
A|---3--------------------------------------------------------------|
E|------------------------------------------------------------------|


C
I remember what you wore on the first day
Am
You came into my life and I thought
F G C
"Hey, you know, this could be something"
C
'Cause everything you do and words you say
Am
You know that it all takes my breath away
F G C
And now I'm left with nothing

F
'Cause maybe it's true
G
That I can't live without you
F G
Maybe two is better than one
F
There's so much time
G
To figure out the rest of my life
Am G F
And you thought that it got me coming undone
Am G C
And I'm thinking two is better than one

C
I remember every look upon your face
Am
The way you roll your eyes
F
The way you taste
G C
You make it hard for breathing
C
'Cause when I close my eyes and drift away
Am
I think of you and everything's okay
F G C
I'm finally now believing

F
That maybe it's true
G
That I can't live without you
F G
Maybe two is better than one
F
There's so much time
G
To figure out the rest of my life

Am G F
And you thought that it got me coming undone
Am G F G
G
And I'm thinking two is better than one

(I don’t know if it’s correct, but it sounds kinda good to me :D)
Violin part:
e|--------------15--------------------------------------------------|
B|-----12--13-------12---12h13--12--10------------------------------|
G|---------------------------------------12-------------------------|
D|------------------------------------------------------------------|
A|------------------------------------------------------------------|
E|------------------------------------------------------------------|

e|--------------15------10------------------------------------------|
B|-----12--13------------------------------------9/10---------------|
G|----------------------------------------9-10----------------------|
D|---------------------------9-10--9-10-----------------------------|
A|------------------------------------------------------------------|
E|------------------------------------------------------------------|

(do some of the intro here to add effects :D)

C
I remember what you wore on the first day
Am
You came into my life and I thought, "Hey,"

F
Maybe it's true
G
That I can't live without you
F G
Maybe two is better than one
F
There's so much time
G
To figure out the rest of my life
Am G F
And you thought that it got me coming undone
F
And I'm thinking

I can't live without you
G
'Cause, baby, two is better than one
F
There's so much time
G
To figure out the rest of my life
Am
But I'll figure it out
G F
When it's all said and done
Am G C
Two is better than one
Am G C
Two is better than one
Tabbed by: quiksilver27
(C) Ultimate guitar
 

Popular On This Forum

Online statistics

Members online
1,634
Guests online
2,254
Total visitors
3,888

Forum statistics

Threads
845,482
Messages
16,716,286
Members
1,467,438
Top