What's new
  • Welcome to PHCorner forums. Take a moment to sign up and gain unlimited access and extra privileges that guests are not entitled to, such as: All that and more! Registration is quick, simple and absolutely free. Join our community today!

OPM With A Smile - Eraserheads (Chords)

Romesky

Honorary Poster
Joined
Nov 16, 2015
Messages
727
Reaction
116
With A Smile - Eraserheads


G Am
Lift your head, baby, don't be scared
Bm Am D
Of the things that could go wrong along the way
G Am
You'll get by with a smile
Bm Am D
You can't win at everything but you can try

Bb
Baby, you don't have to worry
EbM7
'Coz there ain't no need to hurry
Bb EbM7
No one ever said that there's an easy way
Bb
When their closing all their doors
EbM7
And they don't want you anymore
Bb D
This sounds funny but I'll say it anyway

G Am
Girl, I'll stay through the bad times
Bm Am D
Even if I have to fetch you everyday
G Am
I'll get by if you smile
Bm Am D
You can never be too happy in this life

Bb
In a world where everybody
EbM7
Hates a happy ending story
Bb EbM7
It's a wonder love can make this world go 'round
Bb
And don't let it bring you down
EbM7
And turn your face into a frown
Bb D
You'll get along with a little prayer and a song

G Am Bm Am D
To doo doo doo... Let me hear you sing it
G Am Bm Am D
To doo doo doo...

Bb
In a world where everybody
EbM7
Hates a happy ending story
Bb EbM7
It's a wonder love can make the world go 'round
Bb
But don't let it bring you down
EbM7
And turn your face into a frown
Bb D
You'll get along with a little prayer and a song.

G Am
e--------3--3-2-0-----------x--3-2-0--------|
B--------3--------3--1p0----1--------3-0p1--|
G---------------------------2---------------|
D---------------------------2---------------|
A-------------------------------------------|
E--------3----------------------------------|
Lift you head Baby dont be scared

Bm
e--------2---2--------------5---4--|
B--------3--------3---------3---2--|
G--------4--------------4---4---3--|
D--------4------------------x---x--|
A--------2------------------2---1--|
E------------------------ ---------|
of the things that could go wrong along the

Am D
e---0--0-0-----2--2-2----|
B---1--1-1-----3--3-3----|
G---2--2-2-----2--2-2----|
D------2-2-----0--0-0----|
A---0--------------------|
E------------------------|
way

G Am
e--------3--3-2-0-----------x--3-2-0--------|
B--------3--------3--1p0----1--------3-0p1--|
G---------------------------2---------------|
D---------------------------2---------------|
A-------------------------------------------|
E--------3----------------------------------|
You get by with a smile

Bm
e--------2---2-------------5----4--|
B--------3-----3-----------3----2--|
G--------4-------4---------4----3--|
D--------4-----------------x----x--|
A--------2-----------------2----1--|
E----------------------------------|
now its time to kiss away those tears good

Am D
e---0--0-0-----2--2-2----|
B---1--1-1-----3--3-3----|
G---2--2-2-----2--2-2----|
D------2-2-----0--0-0----|
A---0--------------------|
E------------------------|
bye.

G Am Bm Am D
(Too doo doo...) Let me hear you sing it
G Am Bm Am D
(Too doo doo...). . . With a Smile

*************************

x Dead note
p Pull off

*************************
(c) Ultimate guitar
 

Popular On This Forum

Online statistics

Members online
1,544
Guests online
2,173
Total visitors
3,717

Forum statistics

Threads
844,686
Messages
16,702,047
Members
1,466,970
Top