What's new
  • Welcome to PHCorner forums. Take a moment to sign up and gain unlimited access and extra privileges that guests are not entitled to, such as: All that and more! Registration is quick, simple and absolutely free. Join our community today!

Foreign Music Something - The Beatles (Chords/Lyrics)

Romesky

Honorary Poster
Joined
Nov 16, 2015
Messages
727
Reaction
116
Something
Written by George Harrison

The other person who submitted the chords before me is incorrect in many places, i am
this way is 100% correct.

Here are some of the more difficult or uncommon chords used in the song:

C#m/G#: (446654)
F#m7: (242222)
Cmaj7: (x32000)
C7: (x32310)
you should be able to play the rest of the chords.


[Intro]

e|----------------------------------------------------------------|
B|--------10--13br-10-11-12-13------------------------------------|
G|----------------------------------------------------------------|
D|----------------------------------------------------------------|
A|----------------------------------------------------------------|
E|----------------------------------------------------------------|
(this lick is played after every verse and the solo)


[Verse 1]

C Cmaj7
Something in the way she moves,
C7 F
Attracts me like no other lover.
D7 G
Something in the way she woos me.
Am Am(maj7)
I don't wanna leave her now,
Am7 D9
You know I believe, and how.

e|----------------------------------------------------------------|
B|--------10--13br-10-11-12-13------------------------------------|
G|----------------------------------------------------------------|
D|----------------------------------------------------------------|
A|----------------------------------------------------------------|
E|----------------------------------------------------------------|


[Verse 2]

C Cmaj7
Somewhere in her smile she knows,

C7 F F/E
That I don't need no other lover.

D7 G
Something in her style that shows me.

Am Am(maj7)
I don't wanna leave her now,

Am7 D9
You know I believe and how.

e|----------------------------------------------------------------|
B|--------10--13br-10-11-12-13------------------------------------|
G|----------------------------------------------------------------|
D|----------------------------------------------------------------|
A|----------------------------------------------------------------|
E|----------------------------------------------------------------|


[Bridge]

A C#m/G# F#m7 A/E
You're asking me will my love grow,
D G A
I don't know, I don't know.
A C#m/G# F#m7 A/E
You stick around now, it may show,
D G A
I don't know, I don't know.

(I personally dont play the C#m/G# you can just skip it although its incorrect.)


[Chorus]

C Cmaj7
Something in the way she knows,
C7 F
And all I have to do is think of her.
D7 G
Something in the things she shows me.
Am Am(maj7)
I don't wanna leave her now.
Am7 D9
You know I believe and how.

e|----------------------------------------------------------------|
B|--------10--13br-10-11-12-13------------------------------------|
G|----------------------------------------------------------------|
D|----------------------------------------------------------------|
A|----------------------------------------------------------------|
E|----------------------------------------------------------------|



*************************
|b Bend
|r Release
*************************
(C) ultimate guitar
 

Popular On This Forum

Online statistics

Members online
1,350
Guests online
1,444
Total visitors
2,794

Forum statistics

Threads
845,173
Messages
16,711,466
Members
1,467,245
Top