What's new
  • Welcome to PHCorner forums. Take a moment to sign up and gain unlimited access and extra privileges that guests are not entitled to, such as: All that and more! Registration is quick, simple and absolutely free. Join our community today!

OPM Akala - Parokya Ni Edgar (Chords/Lyrics)

Romesky

Honorary Poster
Joined
Nov 16, 2015
Messages
727
Reaction
116
Akala - Parokya Ni Edgar
-------------------------------------------------------------------------------

CHORDS: ------------- -------------
A - x02220 C#m - x46654
Am - x02210 E - 022100
B - x2444x -------------
-------------

legends:
p -> pull-off
h -> hammer-on
s -> slide
b -> bend
r -> release


VERSE I
Akala ko iced tea, yun pala beer, Akala ko reverse yun pala second gear,
Akala ko kasya yun pala hindi, Akala ko tama yun pala mali...
Akala ko hiphop yun pala metal, Akala ko batis yun pala kanal
Akala ko toothpaste yun pala glue, Akala ko verde yun pala blue

E B C#m
Akala ko tsinelas yun pala sapatos, Akala ko umabot yun pala kapos,
A B
Akala ko bukas yun pala kahapon Akala ko mamaya yun pala ngayon...


REFRAIN I
A B E
Akala ko alam ko na ang lahat ng dapat kong malaman ngunit
B C#m A Am
Mali na naman, pero ok lang yan...


CHORUS
E B C#m A B
Wag kang matakot na baka magkamali Walang mapapala kung di ka magbakasakali
E B C#m A B
Dahil lumilipas ang oras, baka ka maiwanan Kung hindi mo susubukan...


VERSE II (same as VERSE I)
E B C#m
Akala ko chicken yun pala asado Akala ko bukas pero yun pala sarado
A B
Akala ko mansanas yun pala banana Akala ko meron pa, yun pala wala na
E B C#m
Akala ko foreign yun pala pinoy Akala ko blâckjâck yun pala pusoy
A B
Akala ko talo yun pala panalo Akala ko si chito, yun pala ako
E B C#m
Akala ko dati walang mangyayari Akala din nila ngayon wala silang masabi
A B
Akala ng lahat mapapagod din ako Mabuti nalang matigas ang aking ulo


VERSE II (lead guitar)

e|---------7-----7-9-----7---|
B|---7-9-----9---------9-----|
G|-9-----9-----9-----9-----9-| (3 times)
D|---------------------------|
A|---------------------------|
E|---------------------------|

,- e|-------------------11-12-14-|
| B|-------------12-------------|
| G|----11-13-------------------| (closing measure.
| D|-14-------14----14----------| piliin niyo kung saan
| A|----------------------------| kayo mas nadadalian)
| E|----------------------------|
OR
| e|---------7---11-12-14-|
| B|---7-9----------------|
| G|-9-----9---9----------|
| D|----------------------|
| A|----------------------|
`- E|----------------------|

(repeat the pattern for the remainder of VERSE II)


REFRAIN II (same as REFRAIN I)
A B E
Akala ko walang mapupuntahan kahit na paghirapan ngunit,
B C#m A B C#m E A
Mali na naman, kung 'di ko sinubukan sana'y 'di ko na nala- man
Am
Eh di nasayang lang...


(CHORUS 2x)


OUTRO (chords)
E B C#m A B
E B C#m A Am E


OUTRO (lead guitar)

e|----------------------------------12-11-14-12-16-12-|
B|----------------------------12-14-------------------|
G|----------------------11-13-------------------------|
D|-13s14---13-----13s14-------------------------------|
A|------------14--------------------------------------|
E|----------------------------------------------------|

e|-17----16----14----12---------------------------------|
B|----14----14----14----14b16r14b16r14--12--------------|
G|------------------------------------------13s9-9-8----|
D|----------------------------------------------------9-|
A|------------------------------------------------------|
E|------------------------------------------------------|

e|-----------------12h14-b16r14b16--r14--12-|
B|-(some-------14---------------------------|
G|--tabs------------------------------------|
D|--missing)--------------------------------|
A|------------------------------------------|
E|------------------------------------------|

e|-14--12h14p12-11--12--14--11--12--14------14--12------14--12--14--16--12-|
B|--------------------------------------13----------13---------------------|
G|-------------------------------------------------------------------------|
D|-------------------------------------------------------------------------|
A|-------------------------------------------------------------------------|
E|-------------------------------------------------------------------------|
(C)ultimate guitar
 

Popular On This Forum

Online statistics

Members online
1,519
Guests online
1,204
Total visitors
2,723

Forum statistics

Threads
848,023
Messages
16,763,415
Members
1,468,934
Top