What's new
  • Welcome to PHCorner Forums. Take a moment to Sign up and gain unlimited access and extra privileges that guests are not entitled to, such as: All that and more! Registration is quick, simple and absolutely free. Join our community today!

Foreign Music Across The Universe - The Beatles (Chords/Lyrics)

Romesky

Established
Joined
Nov 16, 2015
Messages
724
Reaction
116
Across The Universe
the Beatles


[Intro]

e|--2-----/10-----9--7--5-----------------------------------------------------|
B|------------------------7---2--2--2--2--2--2--2--2--------------2-----------|
G|--2-----/11-----9--7--6-----2--4--2--4--2--4--2--4--2--4--2--4--2--4--2--4--|
D|-----0-------0--------------4--4--4--4--4--4--4--4--2--2--2--2--2--2--2--2--|
A|----------------------------x--x--x--x--x--x--x--x--0-----0-----0-----0-----|
E|----------------------------2-----2-----2-----2-----------------------------|


[Verse]

D Bm F#m
Words are flowing out like endless rain into a paper cup
Em7 A A7
They slither while they pass they slip away across the Universe.
D Bm F#m
Pools of sorrow, waves of joy are drifting through my opened mind
Em7 Gm
Possessing and caressing me.


[Chorus]

D A7sus4
Jai Guru Deva Om
A7
Nothing's gonna change my world
G D
Nothing's gonna change my world
A7
Nothing's gonna change my world
G D
Nothing's gonna change my world


[Verse]

D Bm F#m Em7
Images of broken light which dance before me like a million eyes
A A7
They call me on and on across the Universe.
D Bm F#m
Thoughts meander like a restless wind inside a letterbox
Em7 A A7
They tumble blindly as they make their way across the Universe.


[Chorus]

D A7sus4
Jai Guru De Va Om
A7
Nothing's gonna change my world
G D
Nothing's gonna change my world
A7
Nothing's gonna change my world
G D
Nothing's gonna change my world


[Bridge]

D Bm F#m
Sounds of laughter, shades of earth are ringing through my opened ears
Em7 Gm
Inciting and inviting me.
D Bm F#m Em7
Limitless, undying love which shines around me like a million suns
A A7
And calls me on and on across the Universe.


[Chorus]

D A7sus4
Jai Guru De Va Om
A7
Nothing's gonna change my world
G D
Nothing's gonna change my world
A7
Nothing's gonna change my world
G D
Nothing's gonna change my world


[Outro]

D
Jai Guru Deva.
D
Jai Guru Deva.


***
[Intro in C]

e|--0-----/8-----7--5--3-----------------------------------------------------|
B|------------------------5--0--0--0--0--0--0--0--0--0--0--0--0--0--0--0--0--|
G|-----0--/9-----7--5--4-----0--2--0--2--0--2--0--2--0--2--0--2--0--2--0--2--|
D|---------------------------2--2--2--2--2--2--2--2--0--0--0--0--0--0--0--0--|
A|--3------------------------2--2--2--2--2--2--2--2--2--2--2--2--2--2--2--2--|
E|------------8--------------0--0--0--0--0--0--0--0--3--3--3--3--3--3--3--3--|


***********************************
| / Slide up
| x Dead note
***********************************
(C) ultimate guitar
 

Online statistics

Members online
1,394
Guests online
828
Total visitors
2,222

Forum statistics

Threads
813,528
Messages
16,094,123
Members
1,436,927
Top